0
SECTION
2
HEADER
9
$ANGDIR
70
0
9
$CHAMFERA
40
10
9
$CHAMFERB
40
10
9
$CLAYER
8
Layer_1
9
$EXTMAX
10
584.261089005628946324578
20
393.161372324139676948107
9
$EXTMIN
10
3.99812317192780497521198
20
5.16137228838051598245329
9
$LIMMAX
10
600
20
400
9
$LIMMIN
10
0
20
0
9
$LTSCALE
40
10
9
$PLINEGEN
70
0
9
$TEXTSIZE
40
20
9
$GRIDUNIT
10
10
20
10
9
$SNAPUNIT
10
1
20
1
0
ENDSEC
0
SECTION
2
TABLES
0
TABLE
2
STYLE
70
1
0
STYLE
2
STANDARD
70
0
40
0
41
1
50
0
71
0
42
0.20000000000000001110223
3
txt
4

0
ENDTAB
0
TABLE
2
LTYPE
70
14
0
LTYPE
2
CONTINUOUS
70
0
3
Solid line
72
65
73
0
40
0
0
LTYPE
2
DOT
70
0
3
............................................
72
65
73
2
40
0.25
49
0
49
-0.25
0
LTYPE
2
HIDDEN
70
0
3
_ _ _ _ _ _ _ _ _ _ _ _ _ _ _ _ _ _ _ _ _ _ 
72
65
73
2
40
0.375
49
0.25
49
-0.125
0
LTYPE
2
TSLONGDASH
70
0
3
__ __ __ __ __ __ __ __ __ __ __ __ __ __ _ 
72
65
73
2
40
1.28000000000000002664535
49
1
49
-0.280000000000000026645353
0
LTYPE
2
TSDASHDOT
70
0
3
______ . ______ . ______ . ______ . ______ .
72
65
73
4
40
1.28000000000000002664535
49
1
49
-0.140000000000000013322676
49
0
49
-0.140000000000000013322676
0
LTYPE
2
TSCENTER
70
0
3
______ _ ______ _ ______ _ ______ _ ______ _
72
65
73
4
40
2
49
1.5
49
-0.179999999999999993338662
49
0.140000000000000013322676
49
-0.179999999999999993338662
0
LTYPE
2
TSPHANTOM
70
0
3
_____ _ _ _____ _ _ _____ _ _ _____ _ _ ____
72
65
73
6
40
2.5
49
1.62999999999999989341859
49
-0.190000000000000002220446
49
0.149999999999999994448885
49
-0.190000000000000002220446
49
0.149999999999999994448885
49
-0.190000000000000002220446
0
LTYPE
2
DASHED
70
0
3
__ __ __ __ __ __ __ __ __ __ __ __ __ __ __
72
65
73
2
40
0.75
49
0.5
49
-0.25
0
LTYPE
2
CENTER
70
0
3
____ _ ____ _ ____ _ ____ _ ____ _ ____ _ __
72
65
73
4
40
2
49
1.25
49
-0.25
49
0.25
49
-0.25
0
LTYPE
2
PHANTOM
70
0
3
_____ _ _ _____ _ _ _____ _ _ _____ _ _ ____
72
65
73
6
40
2.5
49
1.25
49
-0.25
49
0.25
49
-0.25
49
0.25
49
-0.25
0
LTYPE
2
DASHDOT
70
0
3
__ . __ . __ . __ . __ . __ . __ . __ . __ .
72
65
73
4
40
1
49
0.5
49
-0.25
49
0
49
-0.25
0
LTYPE
2
BORDER
70
0
3
__ __ . __ __ . __ __ . __ __ . __ __ . __ _
72
65
73
6
40
1.75
49
0.5
49
-0.25
49
0.5
49
-0.25
49
0
49
-0.25
0
LTYPE
2
DIVIDE
70
0
3
__ . . __ . . __ . . __ . . __ . . __ . . __
72
65
73
6
40
1.25
49
0.5
49
-0.25
49
0
49
-0.25
49
0
49
-0.25
0
ENDTAB
0
TABLE
2
LAYER
70
3
0
LAYER
2
Layer_1
70
0
62
7
6
CONTINUOUS
0
LAYER
2
Layer_2
70
0
62
7
6
CONTINUOUS
0
LAYER
2
Layer_3
70
0
62
7
6
CONTINUOUS
0
ENDTAB
0
ENDSEC
0
SECTION
2
ENTITIES
0
LINE
8
Layer_1
6
CONTINUOUS
62
1
10
18.1296061010652351797034
20
18.0298893886182156620634
11
18.1296061087563771252462
21
52.2928552043815955130412
0
ARC
8
Layer_1
6
CONTINUOUS
62
1
10
17.1296061087562634384085
20
52.292855204606098595832
40
1.00000000000011368683772
50
0
51
123.69006750590379795085
0
LINE
8
Layer_1
6
CONTINUOUS
62
1
10
16.5749059128739304469491
20
53.1249054991725131458224
11
13.6843063029378413375525
21
51.1978390942689713938307
0
ARC
8
Layer_1
6
CONTINUOUS
62
1
10
13.1296061070553946592554
20
52.02988938883544278724
40
0.999999999999886313162278
50
180
51
303.690067500762665986258
0
LINE
8
Layer_1
6
CONTINUOUS
62
1
10
12.1296061070555083460931
20
52.0298893889099076659477
11
12.1296060911419658623345
21
158.292855207142793005914
0
ARC
8
Layer_1
6
CONTINUOUS
62
1
10
11.1296060911419658623345
20
158.292855207127445282822
40
1
50
0
51
123.690067511051680071432
0
LINE
8
Layer_1
6
CONTINUOUS
62
1
10
10.5749058951848269316542
20
159.1249055016440934196
11
7.6843062854218828761077
21
157.197839096481061460508
0
ARC
8
Layer_1
6
CONTINUOUS
62
1
10
7.12960608946474394542747
20
158.029889390997595910449
40
1
50
180
51
303.690067505910519685131
0
LINE
8
Layer_1
6
CONTINUOUS
62
1
10
6.12960608946474394542747
20
158.029889391132314813149
11
6.12960609407929268854787
21
192.292855206895751507545
0
ARC
8
Layer_1
6
CONTINUOUS
62
1
10
7.12960609407929268854787
20
192.292855206761032604845
40
1.00000000000001731947918
50
56.3099324786611319382246
51
180
0
LINE
8
Layer_1
6
CONTINUOUS
62
1
10
7.6843062902605083763774
20
193.124905501128239393438
11
10.5749058994105666897667
21
191.197839095249150886957
0
ARC
8
Layer_1
6
CONTINUOUS
62
1
10
11.1296060955917823775962
20
192.029889389616414518969
40
1.00000000000006461498003
50
236.309932473518159667947
51
0
0
LINE
8
Layer_1
6
CONTINUOUS
62
1
10
12.1296060955917823775962
20
192.029889389381878572749
11
12.1296060972638883868058
21
199.161372298026321914222
0
LINE
8
Layer_1
6
CONTINUOUS
62
1
10
12.1296060972638883868058
20
199.161372298026321914222
11
12.1296060995762786660634
21
206.292855206670822099113
0
ARC
8
Layer_1
6
CONTINUOUS
62
1
10
13.1296060995762786660634
20
206.292855206346530394512
40
0.999999999999970023978335
50
56.3099324735159569854659
51
180
0
LINE
8
Layer_1
6
CONTINUOUS
62
1
10
13.6843062958321866062761
20
207.124905500663885504764
11
16.5749059048093272394908
21
205.197839094525306791184
0
ARC
8
Layer_1
6
CONTINUOUS
62
1
10
17.1296061010651214928657
20
206.029889388842661901435
40
0.999999999999906963310536
50
236.309932468376615588568
51
0
0
LINE
8
Layer_1
6
CONTINUOUS
62
1
10
18.1296061010652351797034
20
206.029889388618244083773
11
18.1296061087563771252462
21
240.292855204381567091332
0
ARC
8
Layer_1
6
CONTINUOUS
62
1
10
17.1296061087562634384085
20
240.292855204606098595832
40
1.00000000000011368683772
50
0
51
123.690067505902888456149
0
LINE
8
Layer_1
6
CONTINUOUS
62
1
10
16.5749059128739304469491
20
241.124905499172541567532
11
13.6843063029378413375525
21
239.197839094268942972121
0
ARC
8
Layer_1
6
CONTINUOUS
62
1
10
13.1296061070553946592554
20
240.02988938883544278724
40
0.999999999999886313162278
50
180
51
303.690067500761699648137
0
LINE
8
Layer_1
6
CONTINUOUS
62
1
10
12.1296061070555083460931
20
240.029889388909907665948
11
12.1296060911419658623345
21
346.292855207142793005914
0
ARC
8
Layer_1
6
CONTINUOUS
62
1
10
11.1296060911419658623345
20
346.292855207127445282822
40
1
50
0
51
123.690067511051680071432
0
LINE
8
Layer_1
6
CONTINUOUS
62
1
10
10.5749058951848269316542
20
347.1249055016440934196
11
7.6843062854218828761077
21
345.197839096481061460508
0
ARC
8
Layer_1
6
CONTINUOUS
62
1
10
7.12960608946474394542747
20
346.029889390997595910449
40
1
50
180
51
303.690067505910519685131
0
LINE
8
Layer_1
6
CONTINUOUS
62
1
10
6.12960608946474394542747
20
346.029889391132314813149
11
6.12960609407929268854787
21
380.292855206895751507545
0
ARC
8
Layer_1
6
CONTINUOUS
62
1
10
7.12960609407929268854787
20
380.292855206761032604845
40
1.00000000000006461498003
50
56.3099324786629438222008
51
180
0
LINE
8
Layer_1
6
CONTINUOUS
62
1
10
7.6843062902605083763774
20
381.124905501128296236857
11
10.5749058994105666897667
21
379.197839095249150886957
0
ARC
8
Layer_1
6
CONTINUOUS
62
1
10
11.1296060955917823775962
20
380.029889389616414518969
40
1.00000000000006461498003
50
236.309932473518159667947
51
0
0
LINE
8
Layer_1
6
CONTINUOUS
62
1
10
12.1296060955917823775962
20
380.029889389381878572749
11
12.1296060972638883868058
21
387.161372298026321914222
0
LINE
8
Layer_1
6
CONTINUOUS
62
1
10
12.1296060972638883868058
20
387.161372298026321914222
11
19.2610890059083601499879
21
387.161372296034073769988
0
ARC
8
Layer_1
6
CONTINUOUS
62
1
10
19.2610890056289463245776
20
386.161372296034073769988
40
1.00000000000004884981308
50
326.309932473514322737174
51
90
0
LINE
8
Layer_1
6
CONTINUOUS
62
1
10
20.0931392999712556957093
20
385.606672099815455112548
11
18.1660728939624220856786
21
382.716072490751912482665
0
ARC
8
Layer_1
6
CONTINUOUS
62
1
10
18.9981231883047030351008
20
382.161372294533407512063
40
0.99999999999996214139486
50
146.309932478663625943227
51
270
0
LINE
8
Layer_1
6
CONTINUOUS
62
1
10
18.9981231881251346749195
20
381.161372294533407512063
11
53.2610890038885145258973
21
381.161372288380562167731
0
ARC
8
Layer_1
6
CONTINUOUS
62
1
10
53.2610890040681397294975
20
382.161372288380562167731
40
1
50
270
51
33.690067505906654332648
0
LINE
8
Layer_1
6
CONTINUOUS
62
1
10
54.0931392986096284403175
20
382.716072484300298128801
11
52.1660728935763131630665
21
385.606672094149757867854
0
ARC
8
Layer_1
6
CONTINUOUS
62
1
10
52.9981231881178587173054
20
386.161372290069607515761
40
1
50
90
51
213.690067500765536578911
0
LINE
8
Layer_1
6
CONTINUOUS
62
1
10
52.9981231881474457168224
20
387.161372290069607515761
11
159.261089006380359478499
21
387.161372309652847434336
0
ARC
8
Layer_1
6
CONTINUOUS
62
1
10
159.261089006499730658106
20
388.161372309652733747498
40
0.999999999999886313162278
50
270
51
33.6900675007615291178809
0
LINE
8
Layer_1
6
CONTINUOUS
62
1
10
160.093139301091071047267
20
388.716072505497777456185
11
158.166072896317302820535
21
391.606672115520382249088
0
ARC
8
Layer_1
6
CONTINUOUS
62
1
10
158.998123190908643209696
20
392.161372311365425957774
40
1.00000000000011368683772
50
90
51
213.690067495616773385336
0
LINE
8
Layer_1
6
CONTINUOUS
62
1
10
158.998123191178024171677
20
393.161372311365539644612
11
193.261089006941404022655
21
393.161372302136101097858
0
ARC
8
Layer_1
6
CONTINUOUS
62
1
10
193.261089006672079904092
20
392.16137230213598741102
40
0.999999999999938493644436
50
326.309932468374597647198
51
90
0
LINE
8
Layer_1
6
CONTINUOUS
62
1
10
194.093139300964537596883
20
391.606672105842790188035
11
192.166072894696128514624
21
388.716072496952165238326
0
ARC
8
Layer_1
6
CONTINUOUS
62
1
10
192.998123188988586207415
20
388.161372300658968015341
40
0.999999999999938493644436
50
146.309932473519353379743
51
270
0
LINE
8
Layer_1
6
CONTINUOUS
62
1
10
192.998123188619445045333
20
387.161372300658968015341
11
200.129606097263888386806
21
387.161372298026321914222
0
LINE
8
Layer_1
6
CONTINUOUS
62
1
10
200.129606097263888386806
20
387.161372298026321914222
11
207.261089005908331728278
21
387.161372296034073769988
0
ARC
8
Layer_1
6
CONTINUOUS
62
1
10
207.261089005628946324578
20
386.161372296034073769988
40
1.00000000000004884981308
50
326.309932473514322737174
51
90
0
LINE
8
Layer_1
6
CONTINUOUS
62
1
10
208.093139299971255695709
20
385.606672099815455112548
11
206.166072893962393663969
21
382.716072490751912482665
0
ARC
8
Layer_1
6
CONTINUOUS
62
1
10
206.998123188304703035101
20
382.161372294533407512063
40
0.999999999999985789145285
50
146.309932478664535437929
51
270
0
LINE
8
Layer_1
6
CONTINUOUS
62
1
10
206.99812318812513467492
20
381.161372294533407512063
11
241.261089003888514525897
21
381.161372288380562167731
0
ARC
8
Layer_1
6
CONTINUOUS
62
1
10
241.261089004068139729497
20
382.161372288380562167731
40
1
50
270
51
33.690067505906654332648
0
LINE
8
Layer_1
6
CONTINUOUS
62
1
10
242.093139298609628440317
20
382.716072484300298128801
11
240.166072893576313163067
21
385.606672094149757867854
0
ARC
8
Layer_1
6
CONTINUOUS
62
1
10
240.998123188117858717305
20
386.161372290069607515761
40
1
50
90
51
213.690067500765536578911
0
LINE
8
Layer_1
6
CONTINUOUS
62
1
10
240.998123188147417295113
20
387.161372290069607515761
11
347.261089006380359478499
21
387.161372309652847434336
0
ARC
8
Layer_1
6
CONTINUOUS
62
1
10
347.261089006499730658106
20
388.161372309652733747498
40
0.999999999999886313162278
50
270
51
33.6900675007615291178809
0
LINE
8
Layer_1
6
CONTINUOUS
62
1
10
348.093139301091071047267
20
388.716072505497777456185
11
346.166072896317302820535
21
391.606672115520382249088
0
ARC
8
Layer_1
6
CONTINUOUS
62
1
10
346.998123190908643209696
20
392.161372311365425957774
40
1.00000000000011368683772
50
90
51
213.690067495616773385336
0
LINE
8
Layer_1
6
CONTINUOUS
62
1
10
346.998123191178081015096
20
393.161372311365539644612
11
381.261089006941404022655
21
393.161372302136101097858
0
ARC
8
Layer_1
6
CONTINUOUS
62
1
10
381.261089006672079904092
20
392.16137230213598741102
40
0.999999999999938493644436
50
326.309932468374597647198
51
90
0
LINE
8
Layer_1
6
CONTINUOUS
62
1
10
382.093139300964537596883
20
391.606672105842790188035
11
380.166072894696128514624
21
388.716072496952165238326
0
ARC
8
Layer_1
6
CONTINUOUS
62
1
10
380.998123188988586207415
20
388.161372300658968015341
40
0.999999999999938493644436
50
146.309932473519353379743
51
270
0
LINE
8
Layer_1
6
CONTINUOUS
62
1
10
380.998123188619445045333
20
387.161372300658968015341
11
388.129606097263888386806
21
387.161372298026321914222
0
LINE
8
Layer_1
6
CONTINUOUS
62
1
10
388.129606097263888386806
20
387.161372298026321914222
11
395.261089005908331728278
21
387.161372296034073769988
0
ARC
8
Layer_1
6
CONTINUOUS
62
1
10
395.261089005628889481159
20
386.161372296034073769988
40
1.00000000000009614531393
50
326.309932473516141726577
51
90
0
LINE
8
Layer_1
6
CONTINUOUS
62
1
10
396.093139299971255695709
20
385.606672099815455112548
11
394.166072893962393663969
21
382.716072490751912482665
0
ARC
8
Layer_1
6
CONTINUOUS
62
1
10
394.99812318830475987852
20
382.161372294533407512063
40
1.00000000000003308464613
50
146.309932478666354427332
51
270
0
LINE
8
Layer_1
6
CONTINUOUS
62
1
10
394.99812318812513467492
20
381.161372294533407512063
11
429.261089003888571369316
21
381.161372288380562167731
0
ARC
8
Layer_1
6
CONTINUOUS
62
1
10
429.261089004068196572916
20
382.161372288380562167731
40
1
50
270
51
33.6900675059085301654704
0
LINE
8
Layer_1
6
CONTINUOUS
62
1
10
430.093139298609628440317
20
382.716072484300298128801
11
428.166072893576313163067
21
385.606672094149757867854
0
ARC
8
Layer_1
6
CONTINUOUS
62
1
10
428.998123188117858717305
20
386.161372290069607515761
40
1
50
90
51
213.690067500765536578911
0
LINE
8
Layer_1
6
CONTINUOUS
62
1
10
428.998123188147417295113
20
387.161372290069607515761
11
535.261089006380416321917
21
387.161372309652847434336
0
ARC
8
Layer_1
6
CONTINUOUS
62
1
10
535.261089006499787501525
20
388.161372309652733747498
40
0.999999999999886313162278
50
270
51
33.6900675007651102532691
0
LINE
8
Layer_1
6
CONTINUOUS
62
1
10
536.093139301091014203848
20
388.716072505497777456185
11
534.166072896317245977116
21
391.606672115520382249088
0
ARC
8
Layer_1
6
CONTINUOUS
62
1
10
534.998123190908700053114
20
392.161372311365425957774
40
1.00000000000011368683772
50
90
51
213.690067495613163828239
0
LINE
8
Layer_1
6
CONTINUOUS
62
1
10
534.998123191178137858515
20
393.161372311365539644612
11
569.261089006941347179236
21
393.161372302136101097858
0
ARC
8
Layer_1
6
CONTINUOUS
62
1
10
569.261089006672136747511
20
392.16137230213598741102
40
0.999999999999938493644436
50
326.309932468374597647198
51
90
0
LINE
8
Layer_1
6
CONTINUOUS
62
1
10
570.093139300964594440302
20
391.606672105842790188035
11
568.166072894696071671206
21
388.716072496952165238326
0
ARC
8
Layer_1
6
CONTINUOUS
62
1
10
568.998123188988529363996
20
388.161372300658968015341
40
0.999999999999938493644436
50
146.309932473519353379743
51
270
0
LINE
8
Layer_1
6
CONTINUOUS
62
1
10
568.998123188619501888752
20
387.161372300658968015341
11
576.129606097263831543387
21
387.161372298026321914222
0
LINE
8
Layer_1
6
CONTINUOUS
62
1
10
576.129606097263831543387
20
387.161372298026321914222
11
576.129606095591725534177
21
380.029889389381878572749
0
ARC
8
Layer_1
6
CONTINUOUS
62
1
10
575.129606095591725534177
20
380.029889389616414518969
40
1.00000000000000155431223
50
236.309932473523616636157
51
0
0
LINE
8
Layer_1
6
CONTINUOUS
62
1
10
574.574905899410623533186
20
379.197839095249150886957
11
571.684306290260565219796
21
381.124905501128296236857
0
ARC
8
Layer_1
6
CONTINUOUS
62
1
10
571.129606094079235845129
20
380.292855206761032604845
40
1.00000000000012767564783
50
56.3099324786575223811269
51
180
0
LINE
8
Layer_1
6
CONTINUOUS
62
1
10
570.129606094079235845129
20
380.292855206895751507545
11
570.129606089464687102009
21
346.029889391132314813149
0
ARC
8
Layer_1
6
CONTINUOUS
62
1
10
571.129606089464687102009
20
346.029889390997595910449
40
1
50
180
51
303.690067505910519685131
0
LINE
8
Layer_1
6
CONTINUOUS
62
1
10
571.684306285421826032689
20
345.197839096481061460508
11
574.574905895184883775073
21
347.1249055016440934196
0
ARC
8
Layer_1
6
CONTINUOUS
62
1
10
575.129606091142022705753
20
346.292855207127445282822
40
1
50
0
51
123.690067511051680071432
0
LINE
8
Layer_1
6
CONTINUOUS
62
1
10
576.129606091142022705753
20
346.292855207142793005914
11
576.129606107055451502674
21
240.029889388909907665948
0
ARC
8
Layer_1
6
CONTINUOUS
62
1
10
577.129606107055451502674
20
240.02988938883544278724
40
1
50
180
51
303.690067500756299523346
0
LINE
8
Layer_1
6
CONTINUOUS
62
1
10
577.684306302937784494134
20
239.197839094268942972121
11
580.57490591287387360353
21
241.124905499172541567532
0
ARC
8
Layer_1
6
CONTINUOUS
62
1
10
581.12960610875620659499
20
240.292855204606098595832
40
1.00000000000022737367544
50
0
51
123.690067505902888456149
0
LINE
8
Layer_1
6
CONTINUOUS
62
1
10
582.129606108756433968665
20
240.292855204381567091332
11
582.129606101065292023122
21
206.029889388618244083773
0
ARC
8
Layer_1
6
CONTINUOUS
62
1
10
581.129606101065064649447
20
206.029889388842661901435
40
0.999999999999843902642738
50
236.30993246838201571336
51
0
0
LINE
8
Layer_1
6
CONTINUOUS
62
1
10
580.57490590480938408291
20
205.197839094525306791184
11
577.684306295832129762857
21
207.124905500663885504764
0
ARC
8
Layer_1
6
CONTINUOUS
62
1
10
577.129606099576221822645
20
206.292855206346530394512
40
0.999999999999970023978335
50
56.3099324735159569854659
51
180
0
LINE
8
Layer_1
6
CONTINUOUS
62
1
10
576.129606099576221822645
20
206.292855206670822099113
11
576.129606097263831543387
21
199.161372298026321914222
0
LINE
8
Layer_1
6
CONTINUOUS
62
1
10
576.129606097263831543387
20
199.161372298026321914222
11
576.129606095591725534177
21
192.029889389381878572749
0
ARC
8
Layer_1
6
CONTINUOUS
62
1
10
575.129606095591725534177
20
192.029889389616414518969
40
1.00000000000000155431223
50
236.309932473523616636157
51
0
0
LINE
8
Layer_1
6
CONTINUOUS
62
1
10
574.574905899410623533186
20
191.197839095249150886957
11
571.684306290260565219796
21
193.124905501128239393438
0
ARC
8
Layer_1
6
CONTINUOUS
62
1
10
571.129606094079235845129
20
192.292855206761032604845
40
1.00000000000008038014698
50
56.3099324786557104971507
51
180
0
LINE
8
Layer_1
6
CONTINUOUS
62
1
10
570.129606094079235845129
20
192.292855206895751507545
11
570.129606089464687102009
21
158.029889391132314813149
0
ARC
8
Layer_1
6
CONTINUOUS
62
1
10
571.129606089464687102009
20
158.029889390997595910449
40
1
50
180
51
303.690067505910519685131
0
LINE
8
Layer_1
6
CONTINUOUS
62
1
10
571.684306285421826032689
20
157.197839096481061460508
11
574.574905895184883775073
21
159.1249055016440934196
0
ARC
8
Layer_1
6
CONTINUOUS
62
1
10
575.129606091142022705753
20
158.292855207127445282822
40
1
50
0
51
123.690067511051680071432
0
LINE
8
Layer_1
6
CONTINUOUS
62
1
10
576.129606091142022705753
20
158.292855207142793005914
11
576.129606107055451502674
21
52.0298893889099076659477
0
ARC
8
Layer_1
6
CONTINUOUS
62
1
10
577.129606107055451502674
20
52.02988938883544278724
40
1
50
180
51
303.690067500757209018047
0
LINE
8
Layer_1
6
CONTINUOUS
62
1
10
577.684306302937784494134
20
51.1978390942689713938307
11
580.57490591287387360353
21
53.1249054991725131458224
0
ARC
8
Layer_1
6
CONTINUOUS
62
1
10
581.12960610875620659499
20
52.292855204606098595832
40
1.00000000000022737367544
50
0
51
123.69006750590379795085
0
LINE
8
Layer_1
6
CONTINUOUS
62
1
10
582.129606108756433968665
20
52.2928552043815955130412
11
582.129606101065292023122
21
18.0298893886182156620634
0
ARC
8
Layer_1
6
CONTINUOUS
62
1
10
581.129606101065064649447
20
18.0298893888426619014353
40
0.999999999999843902642738
50
236.30993246838201571336
51
0
0
LINE
8
Layer_1
6
CONTINUOUS
62
1
10
580.57490590480938408291
20
17.1978390945253067911835
11
577.684306295832129762857
21
19.1249055006639139264735
0
ARC
8
Layer_1
6
CONTINUOUS
62
1
10
577.129606099576221822645
20
18.2928552063465303945122
40
0.99999999999999367172876
50
56.3099324735168593747403
51
180
0
LINE
8
Layer_1
6
CONTINUOUS
62
1
10
576.129606099576221822645
20
18.2928552066708220991131
11
576.129606097263831543387
21
11.1613722980263503359311
0
LINE
8
Layer_1
6
CONTINUOUS
62
1
10
576.129606097263831543387
20
11.1613722980263503359311
11
568.998123188619501888752
21
11.1613723006589111719222
0
ARC
8
Layer_1
6
CONTINUOUS
62
1
10
568.998123188988529363996
20
12.1613723006589111719222
40
0.999999999999985789145285
50
146.309932473515289075294
51
270
0
LINE
8
Layer_1
6
CONTINUOUS
62
1
10
568.166072894696071671206
20
12.7160724969521936600358
11
570.093139300964594440302
21
15.6066721058428186097444
0
ARC
8
Layer_1
6
CONTINUOUS
62
1
10
569.261089006672136747511
20
16.1613723021359589893109
40
0.999999999999906963310536
50
326.309932468377269287885
51
90
0
LINE
8
Layer_1
6
CONTINUOUS
62
1
10
569.261089006941347179236
20
17.1613723021360726761486
11
534.998123191178137858515
21
17.1613723113655112229026
0
ARC
8
Layer_1
6
CONTINUOUS
62
1
10
534.998123190908700053114
20
16.1613723113653975360648
40
1.00000000000011368683772
50
90
51
213.690067495610435344133
0
LINE
8
Layer_1
6
CONTINUOUS
62
1
10
534.166072896317245977116
20
15.606672115520410670797
11
536.093139301091014203848
21
12.7160725054978058778943
0
ARC
8
Layer_1
6
CONTINUOUS
62
1
10
535.261089006499787501525
20
12.1613723096527053257887
40
0.999999999999886313162278
50
270
51
33.6900675007678955807933
0
LINE
8
Layer_1
6
CONTINUOUS
62
1
10
535.261089006380416321917
20
11.1613723096528190126264
11
428.998123188147417295113
21
11.1613722900695790940517
0
ARC
8
Layer_1
6
CONTINUOUS
62
1
10
428.998123188117858717305
20
10.1613722900695790940517
40
1
50
90
51
213.690067500762836516515
0
LINE
8
Layer_1
6
CONTINUOUS
62
1
10
428.166072893576313163067
20
9.60667209414978628956305
11
430.093139298609628440317
21
6.71607248430032655051036
0
ARC
8
Layer_1
6
CONTINUOUS
62
1
10
429.261089004068196572916
20
6.16137228838053374602168
40
1
50
270
51
33.6900675059112018061569
0
LINE
8
Layer_1
6
CONTINUOUS
62
1
10
429.261089003888571369316
20
5.16137228838053374602168
11
394.99812318812513467492
21
5.16137229453337909035326
0
ARC
8
Layer_1
6
CONTINUOUS
62
1
10
394.99812318830475987852
20
6.16137229453337909035326
40
1.00000000000006461498003
50
146.309932478663625943227
51
270
0
LINE
8
Layer_1
6
CONTINUOUS
62
1
10
394.166072893962393663969
20
6.71607249075194090437435
11
396.093139299971255695709
21
9.60667209981548353425751
0
ARC
8
Layer_1
6
CONTINUOUS
62
1
10
395.261089005628889481159
20
10.161372296034073769988
40
1.00000000000008038014698
50
326.30993247351750596863
51
90
0
LINE
8
Layer_1
6
CONTINUOUS
62
1
10
395.261089005908331728278
20
11.161372296034073769988
11
388.129606097263888386806
21
11.1613722980263503359311
0
LINE
8
Layer_1
6
CONTINUOUS
62
1
10
388.129606097263888386806
20
11.1613722980263503359311
11
380.998123188619445045333
21
11.1613723006589111719222
0
ARC
8
Layer_1
6
CONTINUOUS
62
1
10
380.998123188988586207415
20
12.1613723006589111719222
40
0.999999999999985789145285
50
146.309932473515289075294
51
270
0
LINE
8
Layer_1
6
CONTINUOUS
62
1
10
380.166072894696128514624
20
12.7160724969521936600358
11
382.093139300964537596883
21
15.6066721058428186097444
0
ARC
8
Layer_1
6
CONTINUOUS
62
1
10
381.261089006672079904092
20
16.1613723021359589893109
40
0.999999999999906963310536
50
326.309932468377269287885
51
90
0
LINE
8
Layer_1
6
CONTINUOUS
62
1
10
381.261089006941404022655
20
17.1613723021360726761486
11
346.998123191178081015096
21
17.1613723113655112229026
0
ARC
8
Layer_1
6
CONTINUOUS
62
1
10
346.998123190908643209696
20
16.1613723113653975360648
40
1.00000000000011368683772
50
90
51
213.690067495614044901231
0
LINE
8
Layer_1
6
CONTINUOUS
62
1
10
346.166072896317302820535
20
15.606672115520410670797
11
348.093139301091071047267
21
12.7160725054978058778943
0
ARC
8
Layer_1
6
CONTINUOUS
62
1
10
347.261089006499730658106
20
12.1613723096527053257887
40
0.999999999999886313162278
50
270
51
33.6900675007642576019862
0
LINE
8
Layer_1
6
CONTINUOUS
62
1
10
347.261089006380359478499
20
11.1613723096528190126264
11
240.998123188147417295113
21
11.1613722900695790940517
0
ARC
8
Layer_1
6
CONTINUOUS
62
1
10
240.998123188117858717305
20
10.1613722900695790940517
40
1
50
90
51
213.690067500762836516515
0
LINE
8
Layer_1
6
CONTINUOUS
62
1
10
240.166072893576313163067
20
9.60667209414978628956305
11
242.093139298609628440317
21
6.71607248430032655051036
0
ARC
8
Layer_1
6
CONTINUOUS
62
1
10
241.261089004068139729497
20
6.16137228838053374602168
40
1
50
270
51
33.6900675059094396601722
0
LINE
8
Layer_1
6
CONTINUOUS
62
1
10
241.261089003888514525897
20
5.16137228838053374602168
11
206.99812318812513467492
21
5.16137229453337909035326
0
ARC
8
Layer_1
6
CONTINUOUS
62
1
10
206.998123188304703035101
20
6.16137229453337909035326
40
1.00000000000001731947918
50
146.309932478661835375533
51
270
0
LINE
8
Layer_1
6
CONTINUOUS
62
1
10
206.166072893962393663969
20
6.71607249075194090437435
11
208.093139299971255695709
21
9.60667209981548353425751
0
ARC
8
Layer_1
6
CONTINUOUS
62
1
10
207.261089005628946324578
20
10.161372296034073769988
40
1.00000000000003308464613
50
326.309932473515686979226
51
90
0
LINE
8
Layer_1
6
CONTINUOUS
62
1
10
207.261089005908331728278
20
11.161372296034073769988
11
200.129606097263888386806
21
11.1613722980263503359311
0
LINE
8
Layer_1
6
CONTINUOUS
62
1
10
200.129606097263888386806
20
11.1613722980263503359311
11
192.998123188619445045333
21
11.1613723006589111719222
0
ARC
8
Layer_1
6
CONTINUOUS
62
1
10
192.998123188988586207415
20
12.1613723006589111719222
40
0.999999999999985789145285
50
146.309932473515289075294
51
270
0
LINE
8
Layer_1
6
CONTINUOUS
62
1
10
192.166072894696128514624
20
12.7160724969521936600358
11
194.093139300964537596883
21
15.6066721058428186097444
0
ARC
8
Layer_1
6
CONTINUOUS
62
1
10
193.261089006672079904092
20
16.1613723021359589893109
40
0.999999999999906963310536
50
326.309932468377269287885
51
90
0
LINE
8
Layer_1
6
CONTINUOUS
62
1
10
193.261089006941404022655
20
17.1613723021360726761486
11
158.998123191178024171677
21
17.1613723113655112229026
0
ARC
8
Layer_1
6
CONTINUOUS
62
1
10
158.998123190908643209696
20
16.1613723113653975360648
40
1.00000000000011368683772
50
90
51
213.690067495614044901231
0
LINE
8
Layer_1
6
CONTINUOUS
62
1
10
158.166072896317302820535
20
15.606672115520410670797
11
160.093139301091071047267
21
12.7160725054978058778943
0
ARC
8
Layer_1
6
CONTINUOUS
62
1
10
159.261089006499730658106
20
12.1613723096527053257887
40
0.999999999999886313162278
50
270
51
33.6900675007642576019862
0
LINE
8
Layer_1
6
CONTINUOUS
62
1
10
159.261089006380359478499
20
11.1613723096528190126264
11
52.9981231881474457168224
21
11.1613722900695790940517
0
ARC
8
Layer_1
6
CONTINUOUS
62
1
10
52.9981231881178587173054
20
10.1613722900695790940517
40
1
50
90
51
213.690067500762836516515
0
LINE
8
Layer_1
6
CONTINUOUS
62
1
10
52.1660728935763131630665
20
9.60667209414978628956305
11
54.0931392986096284403175
21
6.71607248430032655051036
0
ARC
8
Layer_1
6
CONTINUOUS
62
1
10
53.2610890040681397294975
20
6.16137228838053374602168
40
1
50
270
51
33.6900675059094396601722
0
LINE
8
Layer_1
6
CONTINUOUS
62
1
10
53.2610890038885145258973
20
5.16137228838053374602168
11
18.9981231881251346749195
21
5.16137229453337909035326
0
ARC
8
Layer_1
6
CONTINUOUS
62
1
10
18.9981231883047030351008
20
6.16137229453337909035326
40
0.99999999999999367172876
50
146.309932478660925880831
51
270
0
LINE
8
Layer_1
6
CONTINUOUS
62
1
10
18.1660728939624220856786
20
6.71607249075194090437435
11
20.0931392999712556957093
21
9.60667209981548353425751
0
ARC
8
Layer_1
6
CONTINUOUS
62
1
10
19.2610890056289463245776
20
10.161372296034073769988
40
1.00000000000003308464613
50
326.309932473515686979226
51
90
0
LINE
8
Layer_1
6
CONTINUOUS
62
1
10
19.2610890059083601499879
20
11.161372296034073769988
11
12.1296060972638883868058
21
11.1613722980263503359311
0
LINE
8
Layer_1
6
CONTINUOUS
62
1
10
12.1296060972638883868058
20
11.1613722980263503359311
11
12.1296060995762786660634
21
18.2928552066708220991131
0
ARC
8
Layer_1
6
CONTINUOUS
62
1
10
13.1296060995762786660634
20
18.2928552063465303945122
40
0.99999999999999367172876
50
56.3099324735168593747403
51
180
0
LINE
8
Layer_1
6
CONTINUOUS
62
1
10
13.6843062958321866062761
20
19.1249055006639139264735
11
16.5749059048093272394908
21
17.1978390945253067911835
0
ARC
8
Layer_1
6
CONTINUOUS
62
1
10
17.1296061010651214928657
20
18.0298893888426619014353
40
0.999999999999906963310536
50
236.309932468376615588568
51
0
0
ARC
8
Layer_1
6
CONTINUOUS
62
1
10
17.1296061010651214928657
20
18.0298893888426619014353
40
0.999999999999906963310536
50
236.309932468376615588568
51
0
0
LINE
8
Layer_1
6
CONTINUOUS
62
1
10
16.5749059048093272394908
20
17.1978390945253067911835
11
13.6843062958321866062761
21
19.1249055006639139264735
0
ARC
8
Layer_1
6
CONTINUOUS
62
1
10
13.1296060995762786660634
20
18.2928552063465303945122
40
0.99999999999999367172876
50
56.3099324735168593747403
51
180
0
LINE
8
Layer_1
6
CONTINUOUS
62
1
10
12.1296060995762786660634
20
18.2928552066708220991131
11
12.1296060972638883868058
21
11.1613722980263503359311
0
POLYLINE
8
Layer_1
6
CONTINUOUS
62
1
66
1
10
0
20
0
70
129
40
0
41
0
0
VERTEX
8
Layer_1
6
CONTINUOUS
62
1
10
166.129606097084263183206
20
13.1613722968590565187696
0
VERTEX
8
Layer_1
6
CONTINUOUS
62
1
10
186.12960609636598974248
20
13.1613722968590565187696
0
VERTEX
8
Layer_1
6
CONTINUOUS
62
1
10
186.12960609636598974248
20
9.1613722932673198329212
0
VERTEX
8
Layer_1
6
CONTINUOUS
62
1
10
166.129606097084263183206
20
9.1613722932673198329212
0
VERTEX
8
Layer_1
6
CONTINUOUS
62
1
10
166.129606097084263183206
20
13.1613722968590565187696
0
SEQEND
0
LINE
8
Layer_1
6
CONTINUOUS
62
1
10
542.129606097443343060149
20
13.1613722950631881758454
11
562.129606096725069619424
21
13.1613722950631881758454
0
LINE
8
Layer_1
6
CONTINUOUS
62
1
10
562.129606096725069619424
20
13.1613722950631881758454
11
562.129606096725069619424
21
9.16137229147145148999698
0
LINE
8
Layer_1
6
CONTINUOUS
62
1
10
562.129606096725069619424
20
9.16137229147145148999698
11
542.129606097443343060149
21
9.16137229147145148999698
0
LINE
8
Layer_1
6
CONTINUOUS
62
1
10
542.129606097443343060149
20
9.16137229147145148999698
11
542.129606097443343060149
21
13.1613722950631881758454
0
LINE
8
Layer_1
6
CONTINUOUS
62
1
10
576.129606097263831543387
20
11.1613722980263503359311
11
583.26108900590827488486
21
11.161372296034073769988
0
ARC
8
Layer_1
6
CONTINUOUS
62
1
10
583.261089005628946324578
20
10.161372296034073769988
40
0.999999999999985789145285
50
326.309932473513867989823
51
90
0
LINE
8
Layer_1
6
CONTINUOUS
62
1
10
584.09313929997119885229
20
9.60667209981548353425751
11
582.16607289396233682055
21
6.71607249075194090437435
0
LINE
8
Layer_1
6
CONTINUOUS
62
1
10
582.16607289396233682055
20
6.71607249075194090437435
11
581.426472632286277075764
21
5.60667209821861689533762
0
ARC
8
Layer_1
6
CONTINUOUS
62
1
10
580.594422337944024548051
20
6.1613722944371787093587
40
1
50
270
51
326.309932473515232231875
0
LINE
8
Layer_1
6
CONTINUOUS
62
1
10
580.594422337984042314929
20
5.1613722944371787093587
11
431.664789853765000771091
21
5.16137228847673412701624
0
ARC
8
Layer_1
6
CONTINUOUS
62
1
10
431.664789853724926160794
20
6.16137228847673412701624
40
0.999999999999985789145285
50
213.690067500761927021813
51
270
0
LINE
8
Layer_1
6
CONTINUOUS
62
1
10
430.832739559183437449974
20
5.60667209255699816594642
11
430.093139298609571596899
21
6.71607248430032655051036
0
LINE
8
Layer_1
6
CONTINUOUS
62
1
10
206.166072893603256943607
20
6.71607249254780924729857
11
205.426472631927254042239
21
5.60667210001448168554816
0
ARC
8
Layer_1
6
CONTINUOUS
62
1
10
204.594422337584944671107
20
6.16137229623304705228293
40
1
50
270
51
326.309932473516937534441
0
LINE
8
Layer_1
6
CONTINUOUS
62
1
10
204.594422337624962437985
20
5.16137229623304705228293
11
55.6647898534058924724377
21
5.16137229027260246994047
0
ARC
8
Layer_1
6
CONTINUOUS
62
1
10
55.6647898533658462838503
20
6.16137229027260246994047
40
0.999999999999985789145285
50
213.690067500761927021813
51
270
0
LINE
8
Layer_1
6
CONTINUOUS
62
1
10
54.8327395588243575730303
20
5.60667209435286650887065
11
54.0931392982504917199549
21
6.71607248609619489343459
0
POLYLINE
8
Layer_1
6
CONTINUOUS
62
1
66
1
10
0
20
0
70
129
40
0
41
0
0
VERTEX
8
Layer_1
6
CONTINUOUS
62
1
10
354.129606097084263183206
20
13.1613722968590565187696
0
VERTEX
8
Layer_1
6
CONTINUOUS
62
1
10
374.12960609636598974248
20
13.1613722968590565187696
0
VERTEX
8
Layer_1
6
CONTINUOUS
62
1
10
374.12960609636598974248
20
9.1613722932673198329212
0
VERTEX
8
Layer_1
6
CONTINUOUS
62
1
10
354.129606097084263183206
20
9.1613722932673198329212
0
VERTEX
8
Layer_1
6
CONTINUOUS
62
1
10
354.129606097084263183206
20
13.1613722968590565187696
0
SEQEND
0
LINE
8
Layer_1
6
CONTINUOUS
62
1
10
394.166072893603256943607
20
6.71607249254780924729857
11
393.426472631927254042239
21
5.60667210001448168554816
0
ARC
8
Layer_1
6
CONTINUOUS
62
1
10
392.594422337584944671107
20
6.16137229623304705228293
40
1
50
270
51
326.309932473516937534441
0
LINE
8
Layer_1
6
CONTINUOUS
62
1
10
392.594422337624962437985
20
5.16137229623304705228293
11
243.664789853405892472438
21
5.16137229027260246994047
0
ARC
8
Layer_1
6
CONTINUOUS
62
1
10
243.66478985336584628385
20
6.16137229027260246994047
40
0.999999999999985789145285
50
213.690067500761927021813
51
270
0
LINE
8
Layer_1
6
CONTINUOUS
62
1
10
242.83273955882435757303
20
5.60667209435286650887065
11
242.093139298250491719955
21
6.71607248609619489343459
0
POLYLINE
8
Layer_1
6
CONTINUOUS
62
1
66
1
10
0
20
0
70
129
40
0
41
0
0
VERTEX
8
Layer_1
6
CONTINUOUS
62
1
10
26.129606096725126462843
20
197.161372295063188175845
0
VERTEX
8
Layer_1
6
CONTINUOUS
62
1
10
46.129606096725126462843
20
197.161372291471479911706
0
VERTEX
8
Layer_1
6
CONTINUOUS
62
1
10
46.1296060974433999035682
20
201.161372291471479911706
0
VERTEX
8
Layer_1
6
CONTINUOUS
62
1
10
26.1296060974433999035682
20
201.161372295063188175845
0
VERTEX
8
Layer_1
6
CONTINUOUS
62
1
10
26.129606096725126462843
20
197.161372295063188175845
0
SEQEND
0
POLYLINE
8
Layer_1
6
CONTINUOUS
62
1
66
1
10
0
20
0
70
129
40
0
41
0
0
VERTEX
8
Layer_1
6
CONTINUOUS
62
1
10
26.129606096725126462843
20
9.16137229506318817584543
0
VERTEX
8
Layer_1
6
CONTINUOUS
62
1
10
46.129606096725126462843
20
9.16137229147145148999698
0
VERTEX
8
Layer_1
6
CONTINUOUS
62
1
10
46.1296060974433999035682
20
13.161372291471451489997
0
VERTEX
8
Layer_1
6
CONTINUOUS
62
1
10
26.1296060974433999035682
20
13.1613722950631881758454
0
VERTEX
8
Layer_1
6
CONTINUOUS
62
1
10
26.129606096725126462843
20
9.16137229506318817584543
0
SEQEND
0
POLYLINE
8
Layer_1
6
CONTINUOUS
62
1
66
1
10
0
20
0
70
129
40
0
41
0
0
VERTEX
8
Layer_1
6
CONTINUOUS
62
1
10
202.129606100855596650945
20
25.1613722973978042318777
0
VERTEX
8
Layer_1
6
CONTINUOUS
62
1
10
202.129606105345203559409
20
45.1613722973978042318777
0
VERTEX
8
Layer_1
6
CONTINUOUS
62
1
10
198.129606105345203559409
20
45.1613722982957312979124
0
VERTEX
8
Layer_1
6
CONTINUOUS
62
1
10
198.129606100855596650945
20
25.161372298295702876203
0
VERTEX
8
Layer_1
6
CONTINUOUS
62
1
10
202.129606100855596650945
20
25.1613722973978042318777
0
SEQEND
0
POLYLINE
8
Layer_1
6
CONTINUOUS
62
1
66
1
10
0
20
0
70
129
40
0
41
0
0
VERTEX
8
Layer_1
6
CONTINUOUS
62
1
10
214.129606096725126462843
20
9.16137229506318817584543
0
VERTEX
8
Layer_1
6
CONTINUOUS
62
1
10
234.129606096725126462843
20
9.16137229147145148999698
0
VERTEX
8
Layer_1
6
CONTINUOUS
62
1
10
234.129606097443399903568
20
13.161372291471451489997
0
VERTEX
8
Layer_1
6
CONTINUOUS
62
1
10
214.129606097443399903568
20
13.1613722950631881758454
0
VERTEX
8
Layer_1
6
CONTINUOUS
62
1
10
214.129606096725126462843
20
9.16137229506318817584543
0
SEQEND
0
POLYLINE
8
Layer_1
6
CONTINUOUS
62
1
66
1
10
0
20
0
70
129
40
0
41
0
0
VERTEX
8
Layer_1
6
CONTINUOUS
62
1
10
390.129606100855596650945
20
25.1613722973978042318777
0
VERTEX
8
Layer_1
6
CONTINUOUS
62
1
10
390.129606105345203559409
20
45.1613722973978042318777
0
VERTEX
8
Layer_1
6
CONTINUOUS
62
1
10
386.129606105345203559409
20
45.1613722982957312979124
0
VERTEX
8
Layer_1
6
CONTINUOUS
62
1
10
386.129606100855596650945
20
25.161372298295702876203
0
VERTEX
8
Layer_1
6
CONTINUOUS
62
1
10
390.129606100855596650945
20
25.1613722973978042318777
0
SEQEND
0
POLYLINE
8
Layer_1
6
CONTINUOUS
62
1
66
1
10
0
20
0
70
129
40
0
41
0
0
VERTEX
8
Layer_1
6
CONTINUOUS
62
1
10
402.129606096725126462843
20
9.16137229506318817584543
0
VERTEX
8
Layer_1
6
CONTINUOUS
62
1
10
422.129606096725126462843
20
9.16137229147145148999698
0
VERTEX
8
Layer_1
6
CONTINUOUS
62
1
10
422.129606097443399903568
20
13.161372291471451489997
0
VERTEX
8
Layer_1
6
CONTINUOUS
62
1
10
402.129606097443399903568
20
13.1613722950631881758454
0
VERTEX
8
Layer_1
6
CONTINUOUS
62
1
10
402.129606096725126462843
20
9.16137229506318817584543
0
SEQEND
0
POLYLINE
8
Layer_1
6
CONTINUOUS
62
1
66
1
10
0
20
0
70
129
40
0
41
0
0
VERTEX
8
Layer_1
6
CONTINUOUS
62
1
10
578.129606100855653494364
20
25.1613722973978042318777
0
VERTEX
8
Layer_1
6
CONTINUOUS
62
1
10
578.12960610534514671599
20
45.1613722973978042318777
0
VERTEX
8
Layer_1
6
CONTINUOUS
62
1
10
574.12960610534514671599
20
45.1613722982957312979124
0
VERTEX
8
Layer_1
6
CONTINUOUS
62
1
10
574.129606100855653494364
20
25.161372298295702876203
0
VERTEX
8
Layer_1
6
CONTINUOUS
62
1
10
578.129606100855653494364
20
25.1613722973978042318777
0
SEQEND
0
POLYLINE
8
Layer_1
6
CONTINUOUS
62
1
66
1
10
0
20
0
70
129
40
0
41
0
0
VERTEX
8
Layer_1
6
CONTINUOUS
62
1
10
10.1296060949292154873547
20
185.161372298475271236384
0
VERTEX
8
Layer_1
6
CONTINUOUS
62
1
10
10.129606092235405867541
20
165.161372298475328079803
0
VERTEX
8
Layer_1
6
CONTINUOUS
62
1
10
14.129606092235405867541
20
165.16137229793656615584
0
VERTEX
8
Layer_1
6
CONTINUOUS
62
1
10
14.1296060949292154873547
20
185.161372297936622999259
0
VERTEX
8
Layer_1
6
CONTINUOUS
62
1
10
10.1296060949292154873547
20
185.161372298475271236384
0
SEQEND
0
POLYLINE
8
Layer_1
6
CONTINUOUS
62
1
66
1
10
0
20
0
70
129
40
0
41
0
0
VERTEX
8
Layer_1
6
CONTINUOUS
62
1
10
186.129606097623025107168
20
201.16137229973242028791
0
VERTEX
8
Layer_1
6
CONTINUOUS
62
1
10
166.129606097623025107168
20
201.161372301528274419979
0
VERTEX
8
Layer_1
6
CONTINUOUS
62
1
10
166.129606097263888386806
20
197.161372301528274419979
0
VERTEX
8
Layer_1
6
CONTINUOUS
62
1
10
186.129606097263888386806
20
197.16137229973242028791
0
VERTEX
8
Layer_1
6
CONTINUOUS
62
1
10
186.129606097623025107168
20
201.16137229973242028791
0
SEQEND
0
POLYLINE
8
Layer_1
6
CONTINUOUS
62
1
66
1
10
0
20
0
70
129
40
0
41
0
0
VERTEX
8
Layer_1
6
CONTINUOUS
62
1
10
202.129606100855596650945
20
213.161372297397804231878
0
VERTEX
8
Layer_1
6
CONTINUOUS
62
1
10
202.129606105345203559409
20
233.161372297397804231878
0
VERTEX
8
Layer_1
6
CONTINUOUS
62
1
10
198.129606105345203559409
20
233.161372298295759719622
0
VERTEX
8
Layer_1
6
CONTINUOUS
62
1
10
198.129606100855596650945
20
213.161372298295702876203
0
VERTEX
8
Layer_1
6
CONTINUOUS
62
1
10
202.129606100855596650945
20
213.161372297397804231878
0
SEQEND
0
POLYLINE
8
Layer_1
6
CONTINUOUS
62
1
66
1
10
0
20
0
70
129
40
0
41
0
0
VERTEX
8
Layer_1
6
CONTINUOUS
62
1
10
198.129606094929215487355
20
185.161372298475271236384
0
VERTEX
8
Layer_1
6
CONTINUOUS
62
1
10
198.129606092235405867541
20
165.161372298475328079803
0
VERTEX
8
Layer_1
6
CONTINUOUS
62
1
10
202.129606092235405867541
20
165.16137229793656615584
0
VERTEX
8
Layer_1
6
CONTINUOUS
62
1
10
202.129606094929215487355
20
185.161372297936622999259
0
VERTEX
8
Layer_1
6
CONTINUOUS
62
1
10
198.129606094929215487355
20
185.161372298475271236384
0
SEQEND
0
POLYLINE
8
Layer_1
6
CONTINUOUS
62
1
66
1
10
0
20
0
70
129
40
0
41
0
0
VERTEX
8
Layer_1
6
CONTINUOUS
62
1
10
214.129606096725126462843
20
197.161372295063188175845
0
VERTEX
8
Layer_1
6
CONTINUOUS
62
1
10
234.129606096725126462843
20
197.161372291471479911706
0
VERTEX
8
Layer_1
6
CONTINUOUS
62
1
10
234.129606097443399903568
20
201.161372291471479911706
0
VERTEX
8
Layer_1
6
CONTINUOUS
62
1
10
214.129606097443399903568
20
201.161372295063188175845
0
VERTEX
8
Layer_1
6
CONTINUOUS
62
1
10
214.129606096725126462843
20
197.161372295063188175845
0
SEQEND
0
POLYLINE
8
Layer_1
6
CONTINUOUS
62
1
66
1
10
0
20
0
70
129
40
0
41
0
0
VERTEX
8
Layer_1
6
CONTINUOUS
62
1
10
374.129606097623025107168
20
201.16137229973242028791
0
VERTEX
8
Layer_1
6
CONTINUOUS
62
1
10
354.129606097623025107168
20
201.161372301528274419979
0
VERTEX
8
Layer_1
6
CONTINUOUS
62
1
10
354.129606097263888386806
20
197.161372301528274419979
0
VERTEX
8
Layer_1
6
CONTINUOUS
62
1
10
374.129606097263888386806
20
197.16137229973242028791
0
VERTEX
8
Layer_1
6
CONTINUOUS
62
1
10
374.129606097623025107168
20
201.16137229973242028791
0
SEQEND
0
POLYLINE
8
Layer_1
6
CONTINUOUS
62
1
66
1
10
0
20
0
70
129
40
0
41
0
0
VERTEX
8
Layer_1
6
CONTINUOUS
62
1
10
390.129606100855596650945
20
213.161372297397804231878
0
VERTEX
8
Layer_1
6
CONTINUOUS
62
1
10
390.129606105345203559409
20
233.161372297397804231878
0
VERTEX
8
Layer_1
6
CONTINUOUS
62
1
10
386.129606105345203559409
20
233.161372298295759719622
0
VERTEX
8
Layer_1
6
CONTINUOUS
62
1
10
386.129606100855596650945
20
213.161372298295702876203
0
VERTEX
8
Layer_1
6
CONTINUOUS
62
1
10
390.129606100855596650945
20
213.161372297397804231878
0
SEQEND
0
POLYLINE
8
Layer_1
6
CONTINUOUS
62
1
66
1
10
0
20
0
70
129
40
0
41
0
0
VERTEX
8
Layer_1
6
CONTINUOUS
62
1
10
386.129606094929215487355
20
185.161372298475271236384
0
VERTEX
8
Layer_1
6
CONTINUOUS
62
1
10
386.129606092235405867541
20
165.161372298475328079803
0
VERTEX
8
Layer_1
6
CONTINUOUS
62
1
10
390.129606092235405867541
20
165.16137229793656615584
0
VERTEX
8
Layer_1
6
CONTINUOUS
62
1
10
390.129606094929215487355
20
185.161372297936622999259
0
VERTEX
8
Layer_1
6
CONTINUOUS
62
1
10
386.129606094929215487355
20
185.161372298475271236384
0
SEQEND
0
POLYLINE
8
Layer_1
6
CONTINUOUS
62
1
66
1
10
0
20
0
70
129
40
0
41
0
0
VERTEX
8
Layer_1
6
CONTINUOUS
62
1
10
402.129606096725126462843
20
197.161372295063188175845
0
VERTEX
8
Layer_1
6
CONTINUOUS
62
1
10
422.129606096725126462843
20
197.161372291471479911706
0
VERTEX
8
Layer_1
6
CONTINUOUS
62
1
10
422.129606097443399903568
20
201.161372291471479911706
0
VERTEX
8
Layer_1
6
CONTINUOUS
62
1
10
402.129606097443399903568
20
201.161372295063188175845
0
VERTEX
8
Layer_1
6
CONTINUOUS
62
1
10
402.129606096725126462843
20
197.161372295063188175845
0
SEQEND
0
POLYLINE
8
Layer_1
6
CONTINUOUS
62
1
66
1
10
0
20
0
70
129
40
0
41
0
0
VERTEX
8
Layer_1
6
CONTINUOUS
62
1
10
562.129606097623081950587
20
201.16137229973242028791
0
VERTEX
8
Layer_1
6
CONTINUOUS
62
1
10
542.129606097623081950587
20
201.161372301528274419979
0
VERTEX
8
Layer_1
6
CONTINUOUS
62
1
10
542.129606097263831543387
20
197.161372301528274419979
0
VERTEX
8
Layer_1
6
CONTINUOUS
62
1
10
562.129606097263831543387
20
197.16137229973242028791
0
VERTEX
8
Layer_1
6
CONTINUOUS
62
1
10
562.129606097623081950587
20
201.16137229973242028791
0
SEQEND
0
POLYLINE
8
Layer_1
6
CONTINUOUS
62
1
66
1
10
0
20
0
70
129
40
0
41
0
0
VERTEX
8
Layer_1
6
CONTINUOUS
62
1
10
578.129606100855653494364
20
213.161372297397804231878
0
VERTEX
8
Layer_1
6
CONTINUOUS
62
1
10
578.12960610534514671599
20
233.161372297397804231878
0
VERTEX
8
Layer_1
6
CONTINUOUS
62
1
10
574.12960610534514671599
20
233.161372298295759719622
0
VERTEX
8
Layer_1
6
CONTINUOUS
62
1
10
574.129606100855653494364
20
213.161372298295702876203
0
VERTEX
8
Layer_1
6
CONTINUOUS
62
1
10
578.129606100855653494364
20
213.161372297397804231878
0
SEQEND
0
POLYLINE
8
Layer_1
6
CONTINUOUS
62
1
66
1
10
0
20
0
70
129
40
0
41
0
0
VERTEX
8
Layer_1
6
CONTINUOUS
62
1
10
10.1296060949292154873547
20
373.161372298475271236384
0
VERTEX
8
Layer_1
6
CONTINUOUS
62
1
10
10.129606092235405867541
20
353.161372298475328079803
0
VERTEX
8
Layer_1
6
CONTINUOUS
62
1
10
14.129606092235405867541
20
353.16137229793656615584
0
VERTEX
8
Layer_1
6
CONTINUOUS
62
1
10
14.1296060949292154873547
20
373.161372297936622999259
0
VERTEX
8
Layer_1
6
CONTINUOUS
62
1
10
10.1296060949292154873547
20
373.161372298475271236384
0
SEQEND
0
POLYLINE
8
Layer_1
6
CONTINUOUS
62
1
66
1
10
0
20
0
70
129
40
0
41
0
0
VERTEX
8
Layer_1
6
CONTINUOUS
62
1
10
186.129606097623025107168
20
389.16137229973242028791
0
VERTEX
8
Layer_1
6
CONTINUOUS
62
1
10
166.129606097623025107168
20
389.161372301528217576561
0
VERTEX
8
Layer_1
6
CONTINUOUS
62
1
10
166.129606097263888386806
20
385.161372301528217576561
0
VERTEX
8
Layer_1
6
CONTINUOUS
62
1
10
186.129606097263888386806
20
385.16137229973242028791
0
VERTEX
8
Layer_1
6
CONTINUOUS
62
1
10
186.129606097623025107168
20
389.16137229973242028791
0
SEQEND
0
POLYLINE
8
Layer_1
6
CONTINUOUS
62
1
66
1
10
0
20
0
70
129
40
0
41
0
0
VERTEX
8
Layer_1
6
CONTINUOUS
62
1
10
374.129606097623025107168
20
389.16137229973242028791
0
VERTEX
8
Layer_1
6
CONTINUOUS
62
1
10
354.129606097623025107168
20
389.161372301528217576561
0
VERTEX
8
Layer_1
6
CONTINUOUS
62
1
10
354.129606097263888386806
20
385.161372301528217576561
0
VERTEX
8
Layer_1
6
CONTINUOUS
62
1
10
374.129606097263888386806
20
385.16137229973242028791
0
VERTEX
8
Layer_1
6
CONTINUOUS
62
1
10
374.129606097623025107168
20
389.16137229973242028791
0
SEQEND
0
POLYLINE
8
Layer_1
6
CONTINUOUS
62
1
66
1
10
0
20
0
70
129
40
0
41
0
0
VERTEX
8
Layer_1
6
CONTINUOUS
62
1
10
386.129606094929215487355
20
373.161372298475271236384
0
VERTEX
8
Layer_1
6
CONTINUOUS
62
1
10
386.129606092235405867541
20
353.161372298475328079803
0
VERTEX
8
Layer_1
6
CONTINUOUS
62
1
10
390.129606092235405867541
20
353.16137229793656615584
0
VERTEX
8
Layer_1
6
CONTINUOUS
62
1
10
390.129606094929215487355
20
373.161372297936622999259
0
VERTEX
8
Layer_1
6
CONTINUOUS
62
1
10
386.129606094929215487355
20
373.161372298475271236384
0
SEQEND
0
POLYLINE
8
Layer_1
6
CONTINUOUS
62
1
66
1
10
0
20
0
70
129
40
0
41
0
0
VERTEX
8
Layer_1
6
CONTINUOUS
62
1
10
562.129606097623081950587
20
389.16137229973242028791
0
VERTEX
8
Layer_1
6
CONTINUOUS
62
1
10
542.129606097623081950587
20
389.161372301528217576561
0
VERTEX
8
Layer_1
6
CONTINUOUS
62
1
10
542.129606097263831543387
20
385.161372301528217576561
0
VERTEX
8
Layer_1
6
CONTINUOUS
62
1
10
562.129606097263831543387
20
385.16137229973242028791
0
VERTEX
8
Layer_1
6
CONTINUOUS
62
1
10
562.129606097623081950587
20
389.16137229973242028791
0
SEQEND
0
POLYLINE
8
Layer_1
6
CONTINUOUS
62
1
66
1
10
0
20
0
70
129
40
0
41
0
0
VERTEX
8
Layer_1
6
CONTINUOUS
62
1
10
198.129606094929329174192
20
373.161372298475271236384
0
VERTEX
8
Layer_1
6
CONTINUOUS
62
1
10
198.129606092235519554379
20
353.161372298475271236384
0
VERTEX
8
Layer_1
6
CONTINUOUS
62
1
10
202.129606092235519554379
20
353.161372297936622999259
0
VERTEX
8
Layer_1
6
CONTINUOUS
62
1
10
202.129606094929329174192
20
373.161372297936622999259
0
VERTEX
8
Layer_1
6
CONTINUOUS
62
1
10
198.129606094929329174192
20
373.161372298475271236384
0
SEQEND
0
POLYLINE
8
Layer_1
6
CONTINUOUS
62
1
66
1
10
0
20
0
70
129
40
0
41
0
0
VERTEX
8
Layer_1
6
CONTINUOUS
62
1
10
422.129606080741893947561
20
385.161372307634223943751
0
VERTEX
8
Layer_1
6
CONTINUOUS
62
1
10
402.129606081460167388286
20
385.161372305838312968262
0
VERTEX
8
Layer_1
6
CONTINUOUS
62
1
10
402.129606081100973824505
20
389.161372309430134919239
0
VERTEX
8
Layer_1
6
CONTINUOUS
62
1
10
422.12960608038270038378
20
389.161372311225989051309
0
VERTEX
8
Layer_1
6
CONTINUOUS
62
1
10
422.129606080741893947561
20
385.161372307634223943751
0
SEQEND
0
LINE
8
Layer_1
6
CONTINUOUS
62
1
10
46.1296060803827856489079
20
385.161372275667872600025
11
26.1296060811010626423467
21
385.161372273871961624536
0
LINE
8
Layer_1
6
CONTINUOUS
62
1
10
26.1296060811010626423467
20
385.161372273871961624536
11
26.1296060807418868421337
21
389.161372277463726732094
0
LINE
8
Layer_1
6
CONTINUOUS
62
1
10
26.1296060807418868421337
20
389.161372277463726732094
11
46.1296060800236134014085
21
389.161372279259580864164
0
LINE
8
Layer_1
6
CONTINUOUS
62
1
10
46.1296060800236134014085
20
389.161372279259580864164
11
46.1296060803827856489079
21
385.161372275667872600025
0
LINE
8
Layer_1
6
CONTINUOUS
62
1
10
12.1296060803827128182775
20
387.161372269651735678053
11
4.99812317173826947680482
21
387.16137227100364270882
0
ARC
8
Layer_1
6
CONTINUOUS
62
1
10
4.99812317192780497521198
20
388.16137227100364270882
40
0.999999999999981126208581
50
146.309932483803834202263
51
270
0
LINE
8
Layer_1
6
CONTINUOUS
62
1
10
4.16607287753574428990078
20
388.716072467147512270458
11
6.09313928328505038933827
21
391.606672076384143110772
0
LINE
8
Layer_1
6
CONTINUOUS
62
1
10
6.09313928328505038933827
20
391.606672076384143110772
11
6.83273954486149293074959
21
392.716072468983838916756
0
ARC
8
Layer_1
6
CONTINUOUS
62
1
10
7.6647898392535536160608
20
392.161372272840026198537
40
1
50
90
51
146.309932483806534264659
0
LINE
8
Layer_1
6
CONTINUOUS
62
1
10
7.66478983912374278730795
20
393.161372272840026198537
11
156.594422323342797653822
21
393.161372292173268760962
0
ARC
8
Layer_1
6
CONTINUOUS
62
1
10
156.59442232347265644421
20
392.161372292173268760962
40
0.99999999999996214139486
50
33.6900675110509908449785
51
90
0
LINE
8
Layer_1
6
CONTINUOUS
62
1
10
157.426472617964321898398
20
392.716072488167696974415
11
158.166072878637805843027
21
391.606672096490797230217
0
LINE
8
Layer_1
6
CONTINUOUS
62
1
10
382.093139283644120496319
20
391.606672108350494454498
11
382.832739545220533727843
21
392.716072500950190260482
0
ARC
8
Layer_1
6
CONTINUOUS
62
1
10
383.664789839612637933897
20
392.161372304806377542263
40
1
50
90
51
146.309932483807926928421
0
LINE
8
Layer_1
6
CONTINUOUS
62
1
10
383.664789839482807565219
20
393.161372304806377542263
11
532.594422323701905952475
21
393.161372324139676948107
0
ARC
8
Layer_1
6
CONTINUOUS
62
1
10
532.594422323831736321154
20
392.161372324139676948107
40
0.999999999999970023978335
50
33.6900675110546075075035
51
90
0
LINE
8
Layer_1
6
CONTINUOUS
62
1
10
533.426472618323373353633
20
392.716072520134162004979
11
534.16607287899694256339
21
391.606672128457205417362
0
POLYLINE
8
Layer_1
6
CONTINUOUS
62
1
66
1
10
0
20
0
70
129
40
0
41
0
0
VERTEX
8
Layer_1
6
CONTINUOUS
62
1
10
234.129606080741865525852
20
385.161372290753092784144
0
VERTEX
8
Layer_1
6
CONTINUOUS
62
1
10
214.129606081460138966577
20
385.161372288957238652074
0
VERTEX
8
Layer_1
6
CONTINUOUS
62
1
10
214.129606081100973824505
20
389.161372292549003759632
0
VERTEX
8
Layer_1
6
CONTINUOUS
62
1
10
234.12960608038270038378
20
389.161372294344857891701
0
VERTEX
8
Layer_1
6
CONTINUOUS
62
1
10
234.129606080741865525852
20
385.161372290753092784144
0
SEQEND
0
LINE
8
Layer_1
6
CONTINUOUS
62
1
10
194.093139283644120496319
20
391.606672091469363294891
11
194.832739545220505306133
21
392.716072484069059100875
0
ARC
8
Layer_1
6
CONTINUOUS
62
1
10
195.664789839612637933897
20
392.161372287925246382656
40
1
50
90
51
146.309932483808808001413
0
LINE
8
Layer_1
6
CONTINUOUS
62
1
10
195.664789839482835986928
20
393.161372287925246382656
11
344.594422323701905952475
21
393.1613723072585457885
0
ARC
8
Layer_1
6
CONTINUOUS
62
1
10
344.594422323831736321154
20
392.1613723072585457885
40
1.00000000000001731947918
50
33.6900675110528027289547
51
90
0
LINE
8
Layer_1
6
CONTINUOUS
62
1
10
345.426472618323430197051
20
392.716072503253030845372
11
346.166072878996885719971
21
391.606672111576131101174
0
LINE
8
Layer_1
6
CONTINUOUS
62
1
10
394.129606101065348866541
20
18.0298893886182440837729
11
394.129606108756490812084
21
52.2928552043816239347507
0
ARC
8
Layer_1
6
CONTINUOUS
62
1
10
393.129606108756263438408
20
52.2928552046061270175414
40
1.00000000000022737367544
50
0
51
123.69006750590379795085
0
LINE
8
Layer_1
6
CONTINUOUS
62
1
10
392.574905912873930446949
20
53.1249054991725415675319
11
389.684306302937841337553
21
51.1978390942689998155402
0
ARC
8
Layer_1
6
CONTINUOUS
62
1
10
389.129606107055508346093
20
52.0298893888354712089495
40
1
50
180
51
303.690067500757209018047
0
LINE
8
Layer_1
6
CONTINUOUS
62
1
10
388.129606107055508346093
20
52.0298893889099360876571
11
388.129606091142079549172
21
158.292855207142821427624
0
ARC
8
Layer_1
6
CONTINUOUS
62
1
10
387.129606091142079549172
20
158.292855207127473704531
40
1
50
0
51
123.690067511051680071432
0
LINE
8
Layer_1
6
CONTINUOUS
62
1
10
386.574905895184940618492
20
159.124905501644121841309
11
383.684306285421882876108
21
157.197839096481089882218
0
ARC
8
Layer_1
6
CONTINUOUS
62
1
10
383.129606089464743945427
20
158.029889390997624332158
40
1
50
180
51
303.690067505910519685131
0
LINE
8
Layer_1
6
CONTINUOUS
62
1
10
382.129606089464743945427
20
158.029889391132343234858
11
382.129606094079292688548
21
192.292855206895779929255
0
ARC
8
Layer_1
6
CONTINUOUS
62
1
10
383.129606094079292688548
20
192.292855206761061026555
40
1.00000000000008038014698
50
56.3099324786557104971507
51
180
0
LINE
8
Layer_1
6
CONTINUOUS
62
1
10
383.684306290260622063215
20
193.124905501128267815147
11
386.574905899410680376604
21
191.197839095249179308666
0
ARC
8
Layer_1
6
CONTINUOUS
62
1
10
387.129606095591782377596
20
192.029889389616442940678
40
1.00000000000000155431223
50
236.309932473523616636157
51
0
0
LINE
8
Layer_1
6
CONTINUOUS
62
1
10
388.129606095591782377596
20
192.029889389381906994458
11
388.129606097263888386806
21
199.161372298026350335931
0
LINE
8
Layer_1
6
CONTINUOUS
62
1
10
388.129606097263888386806
20
199.161372298026350335931
11
388.129606099576278666063
21
206.292855206670850520823
0
ARC
8
Layer_1
6
CONTINUOUS
62
1
10
389.129606099576278666063
20
206.292855206346558816222
40
0.999999999999970023978335
50
56.3099324735159569854659
51
180
0
LINE
8
Layer_1
6
CONTINUOUS
62
1
10
389.684306295832186606276
20
207.124905500663913926473
11
392.574905904809440926329
21
205.197839094525335212893
0
ARC
8
Layer_1
6
CONTINUOUS
62
1
10
393.129606101065121492866
20
206.029889388842690323145
40
0.999999999999843902642738
50
236.30993246838201571336
51
0
0
LINE
8
Layer_1
6
CONTINUOUS
62
1
10
394.129606101065348866541
20
206.029889388618272505482
11
394.129606108756490812084
21
240.292855204381567091332
0
ARC
8
Layer_1
6
CONTINUOUS
62
1
10
393.129606108756263438408
20
240.292855204606098595832
40
1.00000000000022737367544
50
0
51
123.690067505902888456149
0
LINE
8
Layer_1
6
CONTINUOUS
62
1
10
392.574905912873930446949
20
241.124905499172541567532
11
389.684306302937841337553
21
239.197839094268942972121
0
ARC
8
Layer_1
6
CONTINUOUS
62
1
10
389.129606107055508346093
20
240.029889388835499630659
40
1
50
180
51
303.690067500754537377361
0
LINE
8
Layer_1
6
CONTINUOUS
62
1
10
388.129606107055508346093
20
240.029889388909964509367
11
388.129606091142079549172
21
346.292855207142793005914
0
ARC
8
Layer_1
6
CONTINUOUS
62
1
10
387.129606091142079549172
20
346.292855207127445282822
40
1
50
0
51
123.690067511051680071432
0
LINE
8
Layer_1
6
CONTINUOUS
62
1
10
386.574905895184940618492
20
347.1249055016440934196
11
383.684306285421882876108
21
345.197839096481061460508
0
ARC
8
Layer_1
6
CONTINUOUS
62
1
10
383.129606089464743945427
20
346.029889390997595910449
40
1
50
180
51
303.690067505910519685131
0
LINE
8
Layer_1
6
CONTINUOUS
62
1
10
382.129606089464743945427
20
346.029889391132314813149
11
382.129606094079292688548
21
380.292855206895751507545
0
ARC
8
Layer_1
6
CONTINUOUS
62
1
10
383.129606094079292688548
20
380.292855206761032604845
40
1.00000000000012767564783
50
56.3099324786575223811269
51
180
0
LINE
8
Layer_1
6
CONTINUOUS
62
1
10
383.684306290260622063215
20
381.124905501128296236857
11
386.574905899410680376604
21
379.197839095249150886957
0
ARC
8
Layer_1
6
CONTINUOUS
62
1
10
387.129606095591782377596
20
380.029889389616414518969
40
1.00000000000000155431223
50
236.309932473523616636157
51
0
0
LINE
8
Layer_1
6
CONTINUOUS
62
1
10
388.129606095591782377596
20
380.029889389381878572749
11
388.129606097263888386806
21
387.161372298026321914222
0
LINE
8
Layer_1
6
CONTINUOUS
62
1
10
388.129606097263888386806
20
11.1613722980263787576405
11
388.129606099576278666063
21
18.2928552066708505208226
0
ARC
8
Layer_1
6
CONTINUOUS
62
1
10
389.129606099576278666063
20
18.2928552063465588162217
40
0.99999999999999367172876
50
56.3099324735168593747403
51
180
0
LINE
8
Layer_1
6
CONTINUOUS
62
1
10
389.684306295832186606276
20
19.1249055006639423481829
11
392.574905904809440926329
21
17.197839094525335212893
0
ARC
8
Layer_1
6
CONTINUOUS
62
1
10
393.129606101065121492866
20
18.0298893888426903231448
40
0.999999999999843902642738
50
236.30993246838201571336
51
0
0
ARC
8
Layer_1
6
CONTINUOUS
62
1
10
393.129606101065121492866
20
18.0298893888426903231448
40
0.999999999999843902642738
50
236.30993246838201571336
51
0
0
LINE
8
Layer_1
6
CONTINUOUS
62
1
10
392.574905904809440926329
20
17.197839094525335212893
11
389.684306295832186606276
21
19.1249055006639423481829
0
ARC
8
Layer_1
6
CONTINUOUS
62
1
10
389.129606099576278666063
20
18.2928552063465588162217
40
0.99999999999999367172876
50
56.3099324735168593747403
51
180
0
LINE
8
Layer_1
6
CONTINUOUS
62
1
10
388.129606099576278666063
20
18.2928552066708505208226
11
388.129606097263888386806
21
11.1613722980263787576405
0
LINE
8
Layer_1
6
CONTINUOUS
62
1
10
206.129606101065348866541
20
18.0298893886182440837729
11
206.129606108756490812084
21
52.2928552043816239347507
0
ARC
8
Layer_1
6
CONTINUOUS
62
1
10
205.129606108756263438408
20
52.2928552046061270175414
40
1.00000000000022737367544
50
0
51
123.69006750590379795085
0
LINE
8
Layer_1
6
CONTINUOUS
62
1
10
204.574905912873930446949
20
53.1249054991725415675319
11
201.684306302937841337553
21
51.1978390942689998155402
0
ARC
8
Layer_1
6
CONTINUOUS
62
1
10
201.129606107055508346093
20
52.0298893888354712089495
40
1
50
180
51
303.690067500757209018047
0
LINE
8
Layer_1
6
CONTINUOUS
62
1
10
200.129606107055508346093
20
52.0298893889099360876571
11
200.129606091142079549172
21
158.292855207142821427624
0
ARC
8
Layer_1
6
CONTINUOUS
62
1
10
199.129606091142079549172
20
158.292855207127473704531
40
1
50
0
51
123.690067511051680071432
0
LINE
8
Layer_1
6
CONTINUOUS
62
1
10
198.574905895184940618492
20
159.124905501644121841309
11
195.684306285421882876108
21
157.197839096481089882218
0
ARC
8
Layer_1
6
CONTINUOUS
62
1
10
195.129606089464743945427
20
158.029889390997624332158
40
1
50
180
51
303.690067505910519685131
0
LINE
8
Layer_1
6
CONTINUOUS
62
1
10
194.129606089464743945427
20
158.029889391132343234858
11
194.129606094079292688548
21
192.292855206895779929255
0
ARC
8
Layer_1
6
CONTINUOUS
62
1
10
195.129606094079292688548
20
192.292855206761061026555
40
1.00000000000008038014698
50
56.3099324786557104971507
51
180
0
LINE
8
Layer_1
6
CONTINUOUS
62
1
10
195.684306290260622063215
20
193.124905501128267815147
11
198.574905899410680376604
21
191.197839095249179308666
0
ARC
8
Layer_1
6
CONTINUOUS
62
1
10
199.129606095591782377596
20
192.029889389616442940678
40
1.00000000000000155431223
50
236.309932473523616636157
51
0
0
LINE
8
Layer_1
6
CONTINUOUS
62
1
10
200.129606095591782377596
20
192.029889389381906994458
11
200.129606097263888386806
21
199.161372298026350335931
0
LINE
8
Layer_1
6
CONTINUOUS
62
1
10
200.129606097263888386806
20
199.161372298026350335931
11
200.129606099576278666063
21
206.292855206670850520823
0
ARC
8
Layer_1
6
CONTINUOUS
62
1
10
201.129606099576278666063
20
206.292855206346558816222
40
0.999999999999970023978335
50
56.3099324735159569854659
51
180
0
LINE
8
Layer_1
6
CONTINUOUS
62
1
10
201.684306295832186606276
20
207.124905500663913926473
11
204.574905904809440926329
21
205.197839094525335212893
0
ARC
8
Layer_1
6
CONTINUOUS
62
1
10
205.129606101065121492866
20
206.029889388842690323145
40
0.999999999999843902642738
50
236.30993246838201571336
51
0
0
LINE
8
Layer_1
6
CONTINUOUS
62
1
10
206.129606101065348866541
20
206.029889388618272505482
11
206.129606108756490812084
21
240.292855204381567091332
0
ARC
8
Layer_1
6
CONTINUOUS
62
1
10
205.129606108756263438408
20
240.292855204606098595832
40
1.00000000000022737367544
50
0
51
123.690067505902888456149
0
LINE
8
Layer_1
6
CONTINUOUS
62
1
10
204.574905912873930446949
20
241.124905499172541567532
11
201.684306302937841337553
21
239.197839094268942972121
0
ARC
8
Layer_1
6
CONTINUOUS
62
1
10
201.129606107055508346093
20
240.029889388835499630659
40
1
50
180
51
303.690067500754537377361
0
LINE
8
Layer_1
6
CONTINUOUS
62
1
10
200.129606107055508346093
20
240.029889388909964509367
11
200.129606091142079549172
21
346.292855207142793005914
0
ARC
8
Layer_1
6
CONTINUOUS
62
1
10
199.129606091142079549172
20
346.292855207127445282822
40
1
50
0
51
123.690067511051680071432
0
LINE
8
Layer_1
6
CONTINUOUS
62
1
10
198.574905895184940618492
20
347.1249055016440934196
11
195.684306285421882876108
21
345.197839096481061460508
0
ARC
8
Layer_1
6
CONTINUOUS
62
1
10
195.129606089464743945427
20
346.029889390997595910449
40
1
50
180
51
303.690067505910519685131
0
LINE
8
Layer_1
6
CONTINUOUS
62
1
10
194.129606089464743945427
20
346.029889391132314813149
11
194.129606094079292688548
21
380.292855206895751507545
0
ARC
8
Layer_1
6
CONTINUOUS
62
1
10
195.129606094079292688548
20
380.292855206761032604845
40
1.00000000000012767564783
50
56.3099324786575223811269
51
180
0
LINE
8
Layer_1
6
CONTINUOUS
62
1
10
195.684306290260622063215
20
381.124905501128296236857
11
198.574905899410680376604
21
379.197839095249150886957
0
ARC
8
Layer_1
6
CONTINUOUS
62
1
10
199.129606095591782377596
20
380.029889389616414518969
40
1.00000000000000155431223
50
236.309932473523616636157
51
0
0
LINE
8
Layer_1
6
CONTINUOUS
62
1
10
200.129606095591782377596
20
380.029889389381878572749
11
200.129606097263888386806
21
387.161372298026321914222
0
LINE
8
Layer_1
6
CONTINUOUS
62
1
10
200.129606097263888386806
20
11.1613722980263787576405
11
200.129606099576278666063
21
18.2928552066708505208226
0
ARC
8
Layer_1
6
CONTINUOUS
62
1
10
201.129606099576278666063
20
18.2928552063465588162217
40
0.99999999999999367172876
50
56.3099324735168593747403
51
180
0
LINE
8
Layer_1
6
CONTINUOUS
62
1
10
201.684306295832186606276
20
19.1249055006639423481829
11
204.574905904809440926329
21
17.197839094525335212893
0
ARC
8
Layer_1
6
CONTINUOUS
62
1
10
205.129606101065121492866
20
18.0298893888426903231448
40
0.999999999999843902642738
50
236.30993246838201571336
51
0
0
ARC
8
Layer_1
6
CONTINUOUS
62
1
10
205.129606101065121492866
20
18.0298893888426903231448
40
0.999999999999843902642738
50
236.30993246838201571336
51
0
0
LINE
8
Layer_1
6
CONTINUOUS
62
1
10
204.574905904809440926329
20
17.197839094525335212893
11
201.684306295832186606276
21
19.1249055006639423481829
0
ARC
8
Layer_1
6
CONTINUOUS
62
1
10
201.129606099576278666063
20
18.2928552063465588162217
40
0.99999999999999367172876
50
56.3099324735168593747403
51
180
0
LINE
8
Layer_1
6
CONTINUOUS
62
1
10
200.129606099576278666063
20
18.2928552066708505208226
11
200.129606097263888386806
21
11.1613722980263787576405
0
ENDSEC
0
EOF
